Turn of the Century tab



Turn of the Century tab

Postby poodeeo » Wed May 02, 2007 6:13 pm

Anyone have tab or notation on this and willing to share?
poodeeo

Charter Member
 
Posts: 840
Joined: Mon Feb 12, 2001 6:00 pm
Location: .

Postby Terry Shea » Thu May 03, 2007 9:53 pm

Ed used to have the tab on his site. You may be able to contact him and still get it. It's worth a shot anyway.
My personal myspace page:
http://www.myspace.com/terryshea
My music myspace page:
http://www.myspace.com/ahdubicke
Ignore the problem and it will go away.-some dead moron
Terry Shea

User avatar
Charter Member
 
Posts: 964
Joined: Thu Jan 16, 2003 9:02 am
Location: Grand Rapids, MI, USA.

Postby khalpin » Wed May 09, 2007 1:14 pm

Luckily, I saved the file a few years back(Dec 2000), although briefly looking at this, I think there must've been another tab because the opening chord is wrong. It should be
-0-
-0-
-9-
-11
-0-
---
Or something similar to that. I'm at work and don't have a guitar handy to verify that. Anyway, here's what I have:
Turn of the Century

E------------0-----------------10--8--7-----/--5--------|-----7--13-----
B------------0------------------------------------5--8--|--8------------
G------------5-----------5-----7---5--4-----/--3--------|-----4--10-----
D------------7------------------------------------2--5--|--5------------
A------------7--------7-----7---------------------------|---------------
E------------0------------------------------------------|---------------


E---12--10--7--8--5--|--------------------------------------------------
B--------------------|--6--8--10-----8--6--5-----1--3--3/5--3--1--0-----
G---9---7---4--5--3--|--------------------------------------------------
D--------------------|--------------------------------------------------
A--------------------|--------------------------------------------------
E--------------------|--------------------------------------------------


E------------0h1p0-----------7h8--7h8p7--5--|---------------------------
B-------------------3--1--------------------|---------------------------
G---0--2------------------------------------|---------------------------
D-------------------------------------------|---------------------------
A-------------------------------------------|---------------------------
E-------------------------------------------|---------------------------


E------------------10--8--------------5p3-----------------|-------------
B-------------------------10\5-------------3--------------|--10--8------
G---------------------------------------------4-----------|-------------
D---------------------------------------------------------|--10--9------
A---------------------------------------------------------|-------------
E---------------------------------------------------------|-------------
Realizing a form out of stone Set hands moving

E------------|--------------------1-----|------------------3------------
B---6--5--5--|--------------------------|------------3------------------
G------------|--------------------------|--2/4\2--0---------------------
D---7--2--5--|-----------2-----3--------|-------------------------------
A------------|--------------------------|-------------------------------
E------------|--------------------------|-------------------------------
Roan shaped his heart through his working hands

E------|-----8-----8--------------------------------------------|-------
B------|-----8h10--8--------------------------------------------|-------
G------|--------------10-------------------------------7--9-----|-------
D------|------------------10-----------------7--9--10-----------|-------
A------|--------------------------------------------------------|-------
E------|--------------------------------------------------------|-------
work to mold his passion into clay

E---13-----12--10--|--1--0-----------|----------------------------------
B------------------|--1-----3--1-----|----------------------------------
G---14-----12--10--|--2-----------2--|--------------0-------------------
D------------------|--3--------------|-----------------2----------------
A------------------|-----------------|----------------------------------
E------------------|-----------------|----------------------------------
like the sun In his room
E------------------------1--------------|-------------------------------
B---------------------1-----------------|--8--/--10--8------------------
G------------------2--------------------|-------------------------------
D------------2--3-----------------------|--5--/--7---5------------------
A---------------------------------------|-------------------------------
E---------------------------------------|-------------------------------
his la-dy she would dance and sing

E---------------12--/--13--12--10--8--10--12--|--------------10---------
B---------------------------------------------|-------------------------
G---------------9---/--10--9---7---5--7---9---|--------------7----------
D---------------------------------------------|-------------------------
A---------------------------------------------|-------------------------
E---------------------------------------------|-------------------------
so com-pletely so be still

E---8--7--5--\--0------------------------------------------|------------
B---------------------5--/--10-----8-----------------------|--5--5------
G---5--4--2--\--0------------------------------------------|------------
D---------------------2--/--7------5-----------------------|--2--2------
A----------------------------------------------------------|------------
E----------------------------------------------------------|------------
he now cries I have time oh let clay trans- fo-

E---------------------------------|------------------------|--3--3------
B---/--8--6--5--/--6-----5--------|--3h5h6--3--------------|--3--3------
G------------------------------5--|------------------------|--5--4------
D---/--5--3--2--/--3-----2--------|------------------------|--5--5------
A------------------------------3--|------------------------|------------
E---------------------------------|------------------------|------------
o- o- o- orm thee so la - a - la - la

E-----------|--0h1p0--------|--1p0--1p0-----1p0-----------1p0-----------
B-----------|---------3--1--|--------------------3--1-------------------
G-----------|---------------|-------------------------------------------
D---5--5h7--|---------------|--------------------------3----------------
A-----------|---------------|-------------------------------------------
E-----------|---------------|-------------------------------------------
In the deep cold of night

E---1p0--1p0-----------------|-----------------------13--12--10--8------
B----------------3--0--------|------------------------------------------
G----------------------------|--0--------------------10--9---7---5------
D----------------------------|------------------------------------------
A----------------------------|------------------------------------------
E----------------------------|------------------------------------------
winter calls he cries Don't deny me

E---7--5--|--------------------|-----------5--------|-------------------
B---------|--------------------|--3--5--6-----------|-------------------
G---4--2--|--------------------|--------------------|-------------------
D---------|--------------------|--------------------|--0-----2----------
A---------|--------------------|--------------------|-------------------
E---------|--------------------|--------------------|-------------------
For his lady deep her illness Time has


E-----------------------------------------------------------------------
B-------------------------------------------6--5--------3--1------------
G------------5-----4-----0h4p0--------0---------------------------------
D---3---------------------------2-----------7--5--------3--2------------
A-----------------------------------------------------------------------
E-----------------------------------------------------------------------
caught her and willfor all reasons take her

E------------------|-----------------------1--------------------|-------
B------------------|--------------------1-----------------------|-------
G------------------|--0--------------2--------------------------|-------
D------------------|-----2-----2--3-----------------------------|-------
A------------------|--------------------------------------------|-------
E------------------|--------------------------------------------|-------
In the still light of dawn she dies

E---------------------3--5--------3h5p3-----------|---------------------
B------------------3--------------3------6--5--3--|---------------------
G---------4--2--0---------------------------------|---------------------
D-------------------------------------------------|-----2---------------
A-------------------------------------------------|--3------------------
E-------------------------------------------------|---------------------
helpless hands soul revealing

E--------(12)-----------------|-------------------------|---------------
B-----------------------------|-------------(12)--------|---------------
G---(5)-----------------------|-------------------------|---------------
D-----------------------------|--------(5)--------------|---------------
A-----------------------------|-----2-------------------|--0--2--3------
E-----------------------------|--3----------------------|---------------
Like leaves we touch we learn

E--------------------|---------------(7)--|-----------------------------
B--------------------|----------(7)-------|-----------------------------
G--------------------|-----(7)------------|-----0--(5)------------------
D---0--2--3--0h(12)--|--------------------|--2--------------------------
A--------------------|--------------------|-----------------------------
E--------------------|--------------------|-----------------------------
we once knew the story

E---(12)-----------------------------------|----------------------------
B--------------------0-------(12)----------|----------------------------
G---------------0-------(7)----------------|----------------------------
D---------------4/5------------------------|----------------------------
A-------------------------------------5\2--|--0--3----------------------
E------------------------------------------|--------3-------------------
As winter calls he will starve all
Solo
E---------------------------------------------|--1--0-----------|-------
B------------------------------------0--1--3--|--1-----3--1-----|-------
G------------------------------0--2-----------|--2-----------2--|-------
D---------------------0--2--3-----------------|--3--------------|--2----
A------------0--2--3--------------------------|-----------------|-------
E------1--3-----------------------------------|-----------------|-------
but to see the stone be life


E-----------------1--|---------------|--13h15p13-----12h13p12-----10----
B--------------1-----|--8--/--10--8--|----------------------------------
G-----------2--------|---------------|----------------------------------
D---p0h2h3-----------|--5--/--7---5--|----------------------------------
A--------------------|---------------|----------------------------------
E--------------------|---------------|----------------------------------

E---h12p10-----8h10p8-----10h12p10-----12---h---15---p---12-----|-------
B---------------------------------------------------------------|-------
G---------------------------------------------------------------|-------
D---------------------------------------------------------------|-------
A---------------------------------------------------------------|-------
E---------------------------------------------------------------|-------

E---10--8--7--50---------------|-----------------------------|----------
B-----------------5--/--10--8--|--5--8--6--5--6--5--\--------|----------
G---7---5--4--p0---------------|-----------------------------|--5-------
D-----------------2--/--7---5--|--2--5--3--2--3--2--\--------|----------
A------------------------------|-----------------------------|--3-------
E------------------------------|-----------------------------|----------

E------------------------------------------------3----------------------
B---------------------------------------------1-------------------------
G------------------------------------------0----------------------------
D-----------------------------------------------------------------------
A-----------------------------------------------------------------------
E-----------------------------------------------------------------------
Now Roan no more tears set to work


E---------------------|--3--3-------------------0h1p0-------------|-----
B---------------------|--3--3--------------------------3--1--3/5--|-----
G---------------------|--5--4-------------------------------------|-----
D---------------------|--5--5--5--5\3-----------------------------|-----
A---------------------|-------------------------------------------|-----
E---------------------|-------------------------------------------|-----
his strength so transformed him


E---------------------0--3--1--0h1p0------------------------------------
B-------------------------------------3\0-------------------------------
G-----------------------------------------------------------------------
D-----------------------------------------------------------------------
A-----------------------------------------------------------------------
E-----------------------------------------------------------------------
Realizing a form out of stone his work


E------------------------|-----------------------|----------------------
B------------------------|--3-----5--6-----5-----|----------------------
G------------------------|-----------------------|----------------------
D------------3--2--0-----|-----------------------|----------------------
A---------------------3--|-----------------------|----------------------
E------------------------|-----------------------|----------------------
so absorbed him Could she hear him


E---------------17-----|--------------------------|---------------------
B---15--17--18---------|--------------------------|---------------------
G----------------------|-----------5--4--0--------|---------------------
D----------------------|--0--2--3-----------------|---------------------
A----------------------|--------------------------|---------------------
E----------------------|--------------------------|---------------------
Could she see him All aglow was his room

E------------------------|-----------5--------|-----------7--------|----
B---8--6--5--3-----------|--1--3--5-----------|--1--3--5-----------|----
G------------------------|--------------------|--------------------|----
D------------------------|--------------------|--------------------|----
A------------------------|--------------------|--------------------|----
E------------------------|--------------------|--------------------|----
dazed in this light He will touch her He will hold her

E------8-----7h8p7--------|---------------------------------------|-----
B-------------------8-----|--8/10--8--6--5/6\5--3-----------------|-----
G---5---------------------|---------------------------------------|-----
D---5---------------------|---------------------------------------|-----
A-------------------------|---------------------------------------|-----
E-------------------------|---------------------------------------|-----
Laughing as they dance highest colors touching others

E------1p0--1p0-----1p0-----------1p0--1p0--1p0--------|----------------
B---1--------------------3--1--------------------3--0--|----------------
G---0--------------------------------------------------|--0-------------
D---2--------------------------3-----------------------|----------------
A---3--------------------------------------------------|----------------
E------------------------------------------------------|----------------
Did her eyes at the turn of the century

E---------------13--12--10--8--7--------|--------------------------0----
B---------------------------------6--5--|--1--------------------3-------
G---------------10--9---7---5--4--------|--0----------------------------
D---------------------------------3--2--|--2----------------------------
A---------------------------------------|--3----------------------------
E---------------------------------------|--3----------------------------
Tell me plainly How we meet

E---1-----0--1--------0h1p0-----------|---------------------------------
B------3---------------------3--0-----|---------------------------------
G-------------------------------------|--2--0--2------------------------
D-------------------------------------|-----------------5--3--2---------
A-------------------------------------|---------------------------------
E-------------------------------------|---------------------------------
how we love oh let life so transform me

E---------------------------|-------------(12)--------|-----------------
B---------------------------|-------------------------|-----------------
G---------------------------|--------(5)--------------|-----------0-----
D---------------------------|-----2-------------------|--------0--------
A---5--3--2-----------------|--3----------------------|-----2-----------
E------------------5--3--0--|-------------------------|--3--------------
Like leaves we touch


E------3--------|--1--------------------|--1-----1--------1--1----------
B---0-----------|--1--------------------|--3-----3--------1--1----------
G---------------|--2--------------------|--2-----2--------2--2--2h4-----
D---------------|--3--------------------|--0-----0--------3--3--3-------
A---------------|--1--------------------|--0-----3----------------------
E---------------|--1--------------------|-------------------------------
We dance we once knew the story

E----------|--0-----------------0-----------3--------------|--1---------
B-------0--|--1-----------------0-----------4--------------|--1---------
G---p2--0--|--2-----------------0-----------3--------------|--2---------
D-------0--|--2-----------------2-----------5--------------|--3---------
A----------|--0-----------------2--------------------------|--3---------
E----------|--------------------0--------------------------|------------
As autumn calls and we both remember

E--------------------------------|--------------------------------------
B--------------------------------|-----------1-----------1--------------
G--------------------------------|--------0-----------0-----------0-----
D--------------------------------|-----0-----------2-----------3--------
A---------------------------5\3--|--------------------------------------
E--------------------------------|--------------------------------------
all those many years a-go

E------------------0-----------------0-----------0-----------0----------
B---1-----------1-----------------1-----------0-----------0-------------
G------------0-----------------2-----------4-----------5-----------7----
D-----------------------------------------------------------------------
A-----------------------------------------------------------------------
E-----------------------------------------------------------------------

electric guitar
E------0--|-----------------------------------||------------------------
B---0-----|-----------------------------------||----------------8h10----
G---------|--9~~~-----------------------------||-----7h9h11-------------
D---------|-----------------------------------||------------------------
A---------|-----------------------------------||------------------------
E---------|-----------------------------------||------------------------
I'm sure we know

E---------------------|------------------------------------------|------
B---h12-----10h12h13--|--------------10h12h13-----------12h13h15/|------
G---------------------|--9h11h12---------------------------------|------
D---------------------|------------------------------------------|------
A---------------------|------------------------------------------|------
E---------------------|------------------------------------------|------


E-------------------------------------------------------|---------------
B---/17--15p13p12--8h10--10/12--10\8--------------------|---------------
G-------------------------------------7--7/9---/12--11--|---------------
D-------------------------------------------------------|---------------
A-------------------------------------------------------|---------------
E-------------------------------------------------------|---------------



E---------|-----12--10--8--7--7~~~--|--8--7--5--3--2--10~~~--|--12------
B---------|-------------------------|------------------------|----------
G---------|-------------------------|------------------------|----------
D---------|-------------------------|------------------------|----------
A---------|-------------------------|------------------------|----------
E---------|-------------------------|------------------------|----------


E---10--8--7--5--14--10--|--20--19--17~~~--|--------------15--14\-------
B------------------------|-----------------|--13--12--13----------------
G------------------------|-----------------|---------------------7------
D------------------------|-----------------|----------------------------
A------------------------|-----------------|----------------------------
E------------------------|-----------------|----------------------------


E---|-----------------------------12/14--14/15--|--19--20--22~~~--------
B---|-------------------------------------------|-----------------------
G---|-----------2--4--5--7--5--4----------------|-----------------------
D---|--2--4--5----------------------------------|-----------------------
A---|-------------------------------------------|-----------------------
E---|-------------------------------------------|-----------------------


E---12--14--15~~~--14~~~--12--14--10--|--12--14--15--17--19--20--22-----
B-------------------------------------|---------------------------------
G-------------------------------------|---------------------------------
D-------------------------------------|---------------------------------
A-------------------------------------|---------------------------------
E-------------------------------------|---------------------------------


E---22--|--22--17--------------------------|---------------|------------
B-------|----------19\---------17--15--13--|---------------|------------
G-------|----------------------------------|------------9--|------------
D-------|----------------------------------|--7--9--10-----|--7--9------
A-------|----------------------------------|---------------|------------
E-------|----------------------------------|---------------|------------


E-----------|--------------------------------------------|--------------
B-----------|------------10--8--7---/13--12--10----------|------10------
G-------12--|------------------------------------12--11--|--12----------
D---10------|--7--9--10----------------------------------|--------------
A-----------|--------------------------------------------|--------------
E-----------|--------------------------------------------|--------------


E------------------|--------------15--|--20--19--17-------------|-------
B---12--13--15/17--|--10--12--13------|--------------20--17~~~--|/17----
G------------------|------------------|-------------------------|-------
D------------------|------------------|-------------------------|-------
A------------------|------------------|-------------------------|-------
E------------------|------------------|-------------------------|-------



E-------------------------||--16--14--12------12--14--14/16--|--14------
B---15--13---/17--15--13--||--------------14-----------------|----------
G-------------------------||---------------------------------|----------
D-------------------------||---------------------------------|----------
A-------------------------||---------------------------------|----------
E-------------------------||---------------------------------|----------


E---16--17--19--22^--|--------------------------------------------------
B--------------------|--------------------------------------------------
G--------------------|--------------------------------------------------
D--------------------|--------------------------------------------------
A--------------------|--------------------------------------------------
E--------------------|--------------------------------------------------
This is a difficult riff. Play it in groups of 4 notes with the
accent on the third note of each 4 note group. You have to play
this without thinking about it just feel it and let your fingers go.

E---21--17--19--16-------------16---------------------------------------
B----------------------17--19------17-----16--12--14--------------------
G-----------------------------------------------------14--13------------
D-------------------------------------------------------------16--14----
A-----------------------------------------------------------------------
E-----------------------------------------------------------------------

?
E---||------------------------------------------------------------------
B---||--------------------------------------------------------12--10----
G---||------------------------------------------------------------------
D---||------------------------------------------------------------------
A---||------------------------------------------------------------------
E---||------------------------------------------------------------------
Was the sign of the day... with a touch as I
?
E-------------------|-----------------------|---------------------------
B---9---------------|-----------------------|--12--10--9----------------
G------11--9--8-----|-----------------------|-------------11--9--8------
D----------------9--|-----------------------|---------------------------
A-------------------|-----------------------|---------------------------
E-------------------|-----------------------|---------------------------
kiss your fingers
?
E------|-----------------------------------------------|----------------
B------|-----------------------------------------------|----------------
G------|-----------------------------------------------|----------------
D---6--|-----------------------------------------------|----------------
A------|-----------------------------------------------|----------------
E------|-----------------------------------------------|----------------
We walk hands in the sun, memories

E-----------------------------------------------------------------------
B------------------12--10--9------------------------------------12------
G-----------------------------11--9--8----------------------------------
D---------------------------------------9-------------------------------
A-----------------------------------------------------------------------
E-----------------------------------------------------------------------
when we're young love lingers so
E--------------------|--------------------------------------|--9--------
B---10--9------------|-----9--4--5-----7--4--5-----7--4--5--|-----9-----
G----------11--9--8--|--------------------------------------|-----------
D--------------------|--9-----------------------------------|-----------
A--------------------|--------------------------------------|-----------
E--------------------|--------------------------------------|-----------


E----------12--9---------14--11---------14--11---------16--11-----------
B---10------------10-------------12-------------12-------------12-------
G-----------------------------------------------------------------------
D-----------------------------------------------------------------------
A-----------------------------------------------------------------------
E-----------------------------------------------------------------------


E-----------/21--19--17--16--------------------------|------------------
B---14-----------------------19--17--16--------------|------------------
G----------------------------------------16--14--13--|------------------
D----------------------------------------------------|------------------
A----------------------------------------------------|------------------
E----------------------------------------------------|------------------


E-------------------------------------|------------------------|--------
B---------------------------7--9--10--|--------------7--9--12--|--------
G------------------6--8--9------------|-----6--8--9------------|--------
D---6~~~--------9---------------------|--9---------------------|--------
A-------------------------------------|------------------------|--------
E-------------------------------------|------------------------|--------
Was it sun through the haze... that made all your looks

E----------------------------------|-----------------------|------------
B---------------------7--9--10/14--|-----12--10------------|------------
G------------6--8--9---------------|-------------11--9--8--|------------
D----------------------------------|-----------------------|--6~~~------
A----------------------------------|-----------------------|------------
E----------------------------------|-----------------------|------------
warm as moonlight

E----------------------------------|------------------------|-----------
B------------------------7--9--10--|--------------7--9--12--|-----------
G---------------6--8--9------------|-----6--8--9------------|-----------
D------------9---------------------|--9---------------------|-----------
A----------------------------------|------------------------|-----------
E----------------------------------|------------------------|-----------
As a pearl, deep your eyes tears have flown away

E-------------------------|---------------------------------|-----------
B------------7--9--10/14--|-----------------------------14--|-----------
G---6--8--9---------------|-----------------11--13--14------|--13-------
D-------------------------|-----11--13--14------------------|-----------
A-------------------------|---------------------------------|-----------
E-------------------------|---------------------------------|-----------
all the same light


E-------------------14--16--|-------------------------------------------
B-------14--16--17----------|-------------------------------------------
G---16----------------------|-------------------------------------------
D---------------------------|-------------------------------------------
A---------------------------|-------------------------------------------
E---------------------------|-------------------------------------------
Did her eyes....
I'll add the rest of the words later
E-------------------14--16--17--|--------------14--16--17--19--|--------
B-------14--16--17--------------|--14--16--17------------------|--------
G---16--------------------------|------------------------------|--16----
D-------------------------------|------------------------------|--------
A-------------------------------|------------------------------|--------
E-------------------------------|------------------------------|--------


E---------------14--16--17------------------------14--16--17--|--16-----
B---14--16--17------------------------14--16--17--------------|---------
G---------------------------------16--------------------------|---------
D-------------------------------------------------------------|---------
A-------------------------------------------------------------|---------
E-------------------------------------------------------------|---------


E---14------------------|-----------------------------14--16--14--------
B-------17--16--14------|-----------------14--16--17--------------17----
G-------------------16--|--13-----14--16--------------------------------
D-----------------------|-----------------------------------------------
A-----------------------|-----------------------------------------------
E-----------------------|-----------------------------------------------


E---------------|----------------------14--16--17--16--14---------------
B---16--14------|----------14--16--17----------------------17--16-------
G-----------16--|--14--16-----------------------------------------------
D---------------|-------------------------------------------------------
A---------------|-------------------------------------------------------
E---------------|-------------------------------------------------------


E-------|------------------14--16--17--19--|------14--16--17--19--21----
B---14--|------14--16--17------------------|--17------------------------
G-------|--16------------------------------|----------------------------
D-------|----------------------------------|----------------------------
A-------|----------------------------------|----------------------------
E-------|----------------------------------|----------------------------


E---|--------------------|----------------------------------------------
B---|--------0--------0--|----------------------------------------------
G---|--1--1--1--1--1--1--|----------------------------------------------
D---|--2--2-----2--2-----|----------------------------------------------
A---|--------------------|----------------------------------------------
E---|--------------------|----------------------------------------------
Like leaves we


I don't have the slightest idea what's really going on in the next
2 measures the guitar is too low in the mix. I think I'm just
doubling the bass line here.
E---------------------------------|--------------------------|----------
B---------------------------------|--------------------------|----------
G---------------------------------|--------------------------|----------
D---------------------------------|-----4--7--6--------------|----------
A---------6--9--------4--7-----2--|--5-----------7--4--2--0--|--0-------
E------7-----------5--------4-----|--------------------------|----------
touch

E---------------|--4-----------------|--------2-----------|-------------
B---------2--2--|--5-----------------|-----0--0-----------|-------------
G---------2--2--|--6-----------------|-----4--4-----------|-------------
D---------4--4--|--6-----------------|-----4--------------|-------------
A---------0--2--|--4-----------------|-----0--------------|-------------
E------4--------|--4-----------------|--------------------|-------------
knew the story as autumn calls we will
acoustic guitar
E------7-----7-----|--0-------------------------------------------------
B------5-----5-----|--0--------0-----------0-----------0-----------0----
G------5-----5-----|--1-----2-----2-----2-----2-----2-----2-----2-------
D------5-----5-----|--2--------------2-----------2-----------2----------
A------0-----0-----|--2-------------------------------------------------
E------------------|--0-------------------------------------------------
both remember All those many years a-

E---------------|--------0--------0--------0--------0--------0----------
B------------0--|-----0--------0--------0--------0--------0--------0----
G---2-----2-----|--1--------2--------4--------6--------8--------9-------
D------2--------|-------------------------------------------------------
A---------------|-------------------------------------------------------
E---------------|-------------------------------------------------------
go

E---0---------0------------||--16--14--12--11--|--12--9--12--9--11------
B----------0---------------||------------------|----------------0-------
G------11--------13~~~-----||------------------|------------------------
D--------------------------||------------------|--9---------------------
A--------------------------||------------------|------------------------
E--------------------------||------------------|------------------------


E---7--11--7--9--|--4--4-----------|--------------------|--7------------
B----------------|--4-----7--5--4--|--5--------5--------|-----7---------
G----------------|--5--------------|-----6--------6-----|---------------
D----------------|--4--------------|--------6--------6--|--------8------
A-------------0--|--6--------------|--4--------4--------|---------------
E----------------|--4--------------|--------------------|--7------------


E---7-----12--|--11--------9--11--12--14--12--11--12--14--16--14--12----
B-------------|---------------------------------------------------------
G-------------|---------------------------------------------------------
D---------9---|--7------------------------------------------------------
A-------------|------0--0-----------------------------------------------
E---7---------|---------------------------------------------------------


E---11--|--12----------12----------|--11----------11------|-------------
B-------|------14----------14------|------12--------------|--9--7--5----
G-------|----------13----------13--|----------11------11--|-------------
D-------|--11----------11----------|--9-----------9-------|--6--4--2----
A-------|--------------------------|----------------------|--0--0--0----
E-------|--------------------------|----------------------|-------------


E---------------------|--4--5--5/7--5--4-----|--4--------4--------|-----
B---------------------|-------------------7--|-----5--------5-----|-----
G------8--6--4--2-----|----------------------|--------------------|-----
D------x--x--x--x--6--|----------------------|--------6--------6--|-----
A------6--4--2--0--x--|----------------------|--4--------4--------|-----
E------------------4--|----------------------|--------------------|-----


E---7--------7-----|--9-----11--12--11--9-------------------------------
B------7--------7--|-----------------------12--10--9--------------------
G---------8-----8--|----------------------------------11--9--8--9-------
D------------------|----------------------------------------------------
A------------------|--0-------------------------------------------------
E---7--------7-----|----------------------------------------------------


E------------------9--11--|--12--10-------------------------------------
B-------9--10--12---------|----------13--(12)-----13--(12)--10----------
G---11--------------------|---------------------------------------------
D-------------------------|--10-----------------------------------------
A-------------------------|---------------------------------------------
E-------------------------|---------------------------------------------


E---------------------------------------------------2p0--||-------------
B---13--(12)--10-----13--(12)--------------------0-------||-------------
G---------------------------------------------1----------||-------------
D------------------------------------------2-------------||-------------
A---------------------------------------2----------------||-------------
E------------------------------------0-------------------||-------------
khalpin

User avatar
Starship Trooper
 
Posts: 1029
Joined: Sat Mar 31, 2001 1:53 am
Location: Holland Twsp, nj, USA.

Postby Terry Shea » Wed May 09, 2007 11:48 pm

Yup. That looks right. The opening chord is correct too BTW.
My personal myspace page:
http://www.myspace.com/terryshea
My music myspace page:
http://www.myspace.com/ahdubicke
Ignore the problem and it will go away.-some dead moron
Terry Shea

User avatar
Charter Member
 
Posts: 964
Joined: Thu Jan 16, 2003 9:02 am
Location: Grand Rapids, MI, USA.

Postby Terry Shea » Thu May 10, 2007 12:01 am

Ah. I found what is wrong though. The last descending octave notes (on the first line) played on the G and E strings is in error. The tab says 5th fret on the E string which is correct, but 3rd fret on the G-string is not. Play it that way and you don't have an octave...you have an A and a B flat which sound terrible together! It should read 2nd fret on the G-string, not 3rd fret! I think I contacted Ed years ago about the error, but it never got fixed. Thanks for reposting the tab. I printed it out long ago but misplaced it. I might try to work it into a powertab file one of these days if I get the time.
My personal myspace page:
http://www.myspace.com/terryshea
My music myspace page:
http://www.myspace.com/ahdubicke
Ignore the problem and it will go away.-some dead moron
Terry Shea

User avatar
Charter Member
 
Posts: 964
Joined: Thu Jan 16, 2003 9:02 am
Location: Grand Rapids, MI, USA.

Postby Terry Shea » Thu May 10, 2007 12:02 am

Terry Shea wrote:Ah. I found what is wrong though. The last descending octave notes (on the first line) played on the G and E strings is in error. The tab says 5th fret on the E string which is correct, but 3rd fret on the G-string is not. Play it that way and you don't have an octave...you have an A and a B flat which sound terrible together! It should read 2nd fret on the G-string, not 3rd fret! I think I contacted Ed years ago about the error, but it never got fixed. Thanks for reposting the tab. I printed it out long ago but misplaced it. I might try to work it into a powertab file one of these days if I get the time.
Just for clarification, the same error exists on the 2nd line.
My personal myspace page:
http://www.myspace.com/terryshea
My music myspace page:
http://www.myspace.com/ahdubicke
Ignore the problem and it will go away.-some dead moron
Terry Shea

User avatar
Charter Member
 
Posts: 964
Joined: Thu Jan 16, 2003 9:02 am
Location: Grand Rapids, MI, USA.

TOTC tab

Postby poodeeo » Tue May 29, 2007 7:30 pm

Thanks for the tab Kevin (as I remember your name is Kevin; it's been a longtime).
What I am planning to do is learn the version that Steve does with Annie Haslam. I plan to perform it as a duet, and on that recording Steve's guitar is fairly unobstructed most of the way through.
I'm going to try and cut and paste the TAB post, and if that doesn't work maybe you could e-mail me the file ?

Regarding the opening chord, it's funny I was just checking that yesterday with the Keys DVD, and came to the exact same conclusion. I knew that he probably did not play it in first position given that he needed to be way up on the neck for the octave moves.

BTW, I performed Ancient/ Leaves of Green at our annual recital last week. The vocalist was a young lady, a sophomore in high school with a great voice. Her normal range is a little higher, but she did really well.
My instructor and I rearranged the guitar part so that Leaves was the last section, not in the middle. It turned out strikingly similar to Ed's interpretation, and I had not listened to his CD in many years until about a week before the recital. This seemed to work well as a stand-alone piece versus trying to leave it the way it was on Tales. It went well, mistakes were made which is fine, but they were mistakes that I had not been making(not my usual difficulties). Anyway, it was videotaped and when I see it and if it is decent in quality, maybe I will post it on U Tube. Anyway, it was a lot of fun and a lot of work. TOTC is my next mountain to climb.

Thanks again,

Paul
poodeeo

Charter Member
 
Posts: 840
Joined: Mon Feb 12, 2001 6:00 pm
Location: .

Postby khalpin » Wed May 30, 2007 6:15 pm

Paul,

I'm sending an e-mail to my home account to remind myself to look for the tab on my home PC. I think I have the more accurate version there.

Is your e-mail still the @ktc.com address?

How's the 00-18SH holding up?

Peace,
Kevin

P.S. If you could post the Leaves of Green segment, I'd love to see it.
khalpin

User avatar
Starship Trooper
 
Posts: 1029
Joined: Sat Mar 31, 2001 1:53 am
Location: Holland Twsp, nj, USA.

TOTC tab

Postby poodeeo » Thu May 31, 2007 7:29 pm

Same e-mail address Kevin.
That the first chord above looks incorrect, and the first page or two is not consistent with what I worked out, and what I see on the Keys DVD. Obviously, the same thing can be played many ways on the guitar which is part of the fun. But in that opening chord "11" should be "10" if I'm not mistaken.

I will get back to you next week. I've got family coming in to Kerrville this weekend and we will be at the Kerrville Folk Festival quite a bit. Come down sometime.

http://www.kerrville-music.com/
poodeeo

Charter Member
 
Posts: 840
Joined: Mon Feb 12, 2001 6:00 pm
Location: .

Postby stinky britches » Thu Jun 07, 2007 4:30 pm

poodeeo wrote:that opening chord "11" should be "10" if I'm not mistaken
Yup! That version of the chord sounds spot on to my cloth ears
stinky britches

User avatar
Active Member
 
Posts: 56
Joined: Mon May 14, 2007 11:50 pm

Re: Turn of the Century tab

Postby Terry Shea » Sun Aug 05, 2007 11:46 pm

A new Turn Of The Century tab has just been posted at powertabs.net. This is part 1 of 2. Not sure when part 2 will be available. The tab isn't 100% true to the recording but it's an excellent tab nonetheless. It gives a good feel for the timing between the guitar and vocals (although I can't imagine trying to play and sing it at the same time).

http://www.powertabs.net/tablature.php?id=26453
My personal myspace page:
http://www.myspace.com/terryshea
My music myspace page:
http://www.myspace.com/ahdubicke
Ignore the problem and it will go away.-some dead moron
Terry Shea

User avatar
Charter Member
 
Posts: 964
Joined: Thu Jan 16, 2003 9:02 am
Location: Grand Rapids, MI, USA.

Re: Turn of the Century tab

Postby Dr_Yes » Mon Aug 06, 2007 10:31 am

Thanks Terry.

Will check it out. I am trying to get back into playing having been inspired by seeing seYes do Gates live.
[CENTER]Monkey Funch World - The Home of Monkey Magic:
www.myspace.com/monkeyfunch

www.monkeyfunch.com[/CENTER]
Dr_Yes

User avatar
 
Posts: 1750
Joined: Wed Aug 15, 2001 5:00 pm


Return to We Love When We Play

Who is online

Users browsing this forum: No registered users and 1 guest

cron